Табулатура: Скай - "Тебе це може вбити"



СКАЙ - ТЕБЕ ЦЕ МОЖЕ ВБИТИ 

1)----7--------7-----8/7----5-------------8---8-8-7/8/7------7---------------- 
2)----8----8----8-------8-------7/5------7---8-----------8------8-------------- 
3)----7--7--7----7-------7----7----7----7---7---------------7----7------------- 
4)-------------------------------------0--------------------------------0--------- 
5)--------------------------------------------------------------------------------- 
6)--------------------------------------------------------------------------------- 


1)---3---3-2-0----0--------0-------3-2-----2/3/2----------3/2------- 
2)---0----------3--3------0--0----0----0---3------3------------3----- 
3)---0----------2--2-----0----0--0---------2--------2----2-------2--- 
4)---0----------0--0------------------------0------------0------------- 
5)---2------------------------------------------------------------------- 
6)---3------------------0------------------------------------------------

Вступ: G D G D 

Приспів 1: 
У тобі так (G)багато сторін. 
Я просто не (D)розумію, 
я просто хочу(Em) спитати тебе: 
чому ти настільки (D)красива! 
Чому в мене ціла(G) купа дивних речей, 
яких я не (D)розумію, 
яких я не від(Em)криваю тобі, 
бо це все може вби(D)ти, 
тебе це може вби(G)ти. 

Програш 1: G D G D 

(G)Трошки більше, ніж (D)навхрест, 
зав'язались ву(Em)злики, 
і не розірва(Hm)ти, і не (D)розв'язати. 

(G)Доторкнутись до зі(D)ниць... 
Я навік в тобі(Em) застиг... 
Все це так спонтанно 
(D)і чомусь банально... 
Зна(Em)ти, думати, (Hm)себе побачити зі сторони, 
можли(C)во, все в житті можливо. 

Приспів 1. 

Програш 2: G Hm C 

З двадцять другої весни 
я закину свої принципи; 
це буває рідко, але так помітно... 
Друзі всі здуріли мов, 
всіх понесло на любов, 
і ніхто не вправі, 
тут вже ніхто не вправі 
стримати чи зупинити - це ж нормально. 
Треба бути нам... якось жити нам... 

Приспів 2: 
У тобі так багато сторін. 
Я просто не розумію, 
я просто хочу спитати тебе: 
чому ти настільки красива! 
Чому в мене ціла купа дивних речей, 
яких я не розумію; 
я просто не відкриваюсь тобі, 
бо це все може вбити, 
тебе це може вбити. 

(D)...тебе це мо(G)же в(D)бити. 
...тебе це мо(G)же в(D)бити. 
...тебе це мо(Em)же в(D)бити. 

Програш 3: G D G D G