Табулатура: БумБокс - "Ким ми були (v. 2)"


Подборку добавил(a): deadreact


Вступ
   Hm      A       Hm/G#   A       Hm      A       Hm/G#   A
E|--------------.-------------------------------.-------------------|
B|---3--.-------0----3--.----2--.----3--.-------0----3--.----2--3---|
G|------4----2----------4-------4-------4----2----------4-----------|
D|------------------------------------------------------------------|
A|-2-------0---------------0-------2-------0---------------0--------|
E|-----------------4-------------------------------4----------------|

   Hm      A       Hm/G#   A       Hm      A       Hm/G#   A
E|--------------.-------------------------------.-------------------|
B|---3--.-------0----3--.----2--.----3--.-------0----3--.-----------|
G|------4----2----------4-------4-------4----2----------4-----------|
D|------------------------------------------------------------------|
A|-2-------0---------------0-------2-------0---------------0--------|
E|-----------------4-------------------------------4----------------|

Куплет

   Hm      A       Hm/G#   A       Hm      A       Hm/G#   A
E|--------------.---------------.---------------.-------------------|
B|---3--.-------0----3--.-------0----3--.-------0----3--.----2--3---|
G|------4----2----------4----2----------4----2----------4-----------|
D|------------------------------------------------------------------|
A|-2-------0---------------0-------2-------0---------------0--------|
E|-----------------4-------------------------------4----------------|

Приспів
Ритміка свінг

   H5      A   A7
E|------------------|
B|---------------8--|
G|-----------6-x-6--| x4
D|---9-x-9---7-x-5--|
A|---9-x-9---7-x-7--|
E|-x-7-x-7-5--------|

   H5      A
E|------------------|
B|---------------2--|
G|---------------2--| x3
D|-x999x999x777x-2--|
A|-x999x999x777x0---|
E|-x777x777x555-----|

   H5      A
E|------------------|
B|------------------|
G|------------------|
D|-x999x999x77------|
A|-x999x999x77------|
E|-x777x777x55------|

Текст

[Вступ]

[Куплет 1]
В кожного гурту є пісні про дні і ночі
Всіх накриває, таке іноді буває
Привіт, як справи? Бери все, що ти захочеш
Хто вміє слухати той не перебиває
Коли наснаги бракує ― телефоную
Або кажу сам собі easy, let it be
Кому о 5-ій слова ці вночі римую
Чи це потрібно тобі? Так тобі, тобі.
Наполеонівські плани у ростамана
Швидко спалахують, мить і вони згасають
Ні ми не рупори, ми лише меломани
Подорожують, куражаться, зависають

[Приспів]
Я пам'ятаю, як приїхали-приплили
Вірші плели, очима кліп-кліп-кліпали
Хворіли музикою, кліпами ми
І залишилися лиш тими, ким були
Думками з вами, ну ніяк без вас
І кожен раз мов перший раз
Декілька тисяч накрутили, набігали
Та залишилися лиши тими, ким були

[Куплет 2]
Перефарбую батареї в червоне
Вони одразу стануть теплі й чисті
Старенькі конверси, люлька і мікрофони
Обраний номер не дійсний, давно не дійсний
П'ятеро нас у маленькій тачці на трасі
Коли щасливі, всім байдуже те, що тісно
Хто розуміє, що маю я на увазі
Заходьте в гості, я рано чекаю й пізно
Наполеонівські плани у ростамана
Швидко спалахують, мить і вони згасають
Ні ми не рупори, ми лише меломани
Подорожують, куражаться, зависають

[Приспів] х3

БумБокс:

Em@il (Аккорды) Happy End (Аккорды) Happy End (Текст песни) Hip-hop (Аккорды) Бетакаротин (Аккорды) Бобік (Текст песни) Бобік (Аккорды) Віддаю (Аккорды) Віддаю (Аккорды) Віддаю (Текст песни) Вахтерам (Аккорды) Вахтёрам (Текст песни) Діагноз (Аккорды) Діагноз (Аккорды) День (Аккорды) Дитина (Табулатура) Дитина (Аккорды) Зима (Текст песни) Зцапала-злапала (Аккорды) Квіти в волоссі (Табулатура) Квіти в волоссі (Текст песни) Ким ми були (Табулатура) Ким ми були (v. 2) (Табулатура) Королева (Аккорды) Люди (Аккорды) Маленька дитина (Текст песни) Маленька дитина (Аккорды) Маленька дитина (Аккорды) Маленька дитина (Аккорды) Настане той день (Текст песни) Нездара (Аккорды) Нездара (Аккорды) Нездара (Текст песни) Одна (Аккорды) Пепел (Аккорды) Рожеві сиропи (Аккорды) Сандали (Аккорды) Супєр-пупєр (Аккорды) Супер пупер (Аккорды) Та что (Аккорды) Та что (Аккорды) Та что (Аккорды) Хвилюватися немає причин (Текст песни) Хоттабыч (Текст песни) Этим летом (Аккорды)